ISO-10303-21;
HEADER;
FILE_DESCRIPTION((''),'2;1');
FILE_NAME('459281_ASM','2013-04-17T',('rgrant'),('CRENLO Cab Products, Inc'),
'PRO/ENGINEER BY PARAMETRIC TECHNOLOGY CORPORATION, 2010280',
'PRO/ENGINEER BY PARAMETRIC TECHNOLOGY CORPORATION, 2010280','');
FILE_SCHEMA(('AUTOMOTIVE_DESIGN_CC2 { 1 2 10303 214 -1 1 5 2 }'));
ENDSEC;
DATA;
#13=DIRECTION('',(-1.E0,0.E0,0.E0));
#14=VECTOR('',#13,9.06E0);
#15=CARTESIAN_POINT('',(1.075E1,2.5E-1,0.E0));
#16=LINE('',#15,#14);
#17=CARTESIAN_POINT('',(1.69E0,4.4E-1,0.E0));
#18=DIRECTION('',(0.E0,0.E0,-1.E0));
#19=DIRECTION('',(0.E0,-1.E0,0.E0));
#20=AXIS2_PLACEMENT_3D('',#17,#18,#19);
#22=DIRECTION('',(0.E0,1.E0,0.E0));
#23=VECTOR('',#22,6.E-2);
#24=CARTESIAN_POINT('',(1.5E0,4.4E-1,0.E0));
#25=LINE('',#24,#23);
#26=DIRECTION('',(-1.E0,0.E0,0.E0));
#27=VECTOR('',#26,1.31E0);
#28=CARTESIAN_POINT('',(1.5E0,5.E-1,0.E0));
#29=LINE('',#28,#27);
#30=CARTESIAN_POINT('',(1.9E-1,3.1E-1,0.E0));
#31=DIRECTION('',(0.E0,0.E0,1.E0));
#32=DIRECTION('',(0.E0,1.E0,0.E0));
#33=AXIS2_PLACEMENT_3D('',#30,#31,#32);
#35=DIRECTION('',(0.E0,-1.E0,0.E0));
#36=VECTOR('',#35,6.2E-1);
#37=CARTESIAN_POINT('',(0.E0,3.1E-1,0.E0));
#38=LINE('',#37,#36);
#39=CARTESIAN_POINT('',(1.9E-1,-3.1E-1,0.E0));
#40=DIRECTION('',(0.E0,0.E0,1.E0));
#41=DIRECTION('',(-1.E0,0.E0,0.E0));
#42=AXIS2_PLACEMENT_3D('',#39,#40,#41);
#44=DIRECTION('',(1.E0,0.E0,0.E0));
#45=VECTOR('',#44,1.31E0);
#46=CARTESIAN_POINT('',(1.9E-1,-5.E-1,0.E0));
#47=LINE('',#46,#45);
#48=DIRECTION('',(0.E0,1.E0,0.E0));
#49=VECTOR('',#48,6.E-2);
#50=CARTESIAN_POINT('',(1.5E0,-5.E-1,0.E0));
#51=LINE('',#50,#49);
#52=CARTESIAN_POINT('',(1.69E0,-4.4E-1,0.E0));
#53=DIRECTION('',(0.E0,0.E0,-1.E0));
#54=DIRECTION('',(-1.E0,0.E0,0.E0));
#55=AXIS2_PLACEMENT_3D('',#52,#53,#54);
#57=DIRECTION('',(1.E0,0.E0,0.E0));
#58=VECTOR('',#57,9.06E0);
#59=CARTESIAN_POINT('',(1.69E0,-2.5E-1,0.E0));
#60=LINE('',#59,#58);
#61=CARTESIAN_POINT('',(1.075E1,0.E0,0.E0));
#62=DIRECTION('',(0.E0,0.E0,1.E0));
#63=DIRECTION('',(0.E0,-1.E0,0.E0));
#64=AXIS2_PLACEMENT_3D('',#61,#62,#63);
#66=DIRECTION('',(0.E0,1.E0,0.E0));
#67=VECTOR('',#66,5.E-1);
#68=CARTESIAN_POINT('',(8.1E-1,-2.5E-1,0.E0));
#69=LINE('',#68,#67);
#70=CARTESIAN_POINT('',(7.5E-1,-2.5E-1,0.E0));
#71=DIRECTION('',(0.E0,0.E0,1.E0));
#72=DIRECTION('',(-1.E0,0.E0,0.E0));
#73=AXIS2_PLACEMENT_3D('',#70,#71,#72);
#75=DIRECTION('',(0.E0,-1.E0,0.E0));
#76=VECTOR('',#75,5.E-1);
#77=CARTESIAN_POINT('',(6.9E-1,2.5E-1,0.E0));
#78=LINE('',#77,#76);
#79=CARTESIAN_POINT('',(7.5E-1,2.5E-1,0.E0));
#80=DIRECTION('',(0.E0,0.E0,1.E0));
#81=DIRECTION('',(1.E0,0.E0,0.E0));
#82=AXIS2_PLACEMENT_3D('',#79,#80,#81);
#84=DIRECTION('',(0.E0,0.E0,1.E0));
#85=VECTOR('',#84,8.E-2);
#86=CARTESIAN_POINT('',(1.075E1,2.5E-1,0.E0));
#87=LINE('',#86,#85);
#88=DIRECTION('',(0.E0,0.E0,1.E0));
#89=VECTOR('',#88,8.E-2);
#90=CARTESIAN_POINT('',(1.075E1,-2.5E-1,0.E0));
#91=LINE('',#90,#89);
#92=DIRECTION('',(0.E0,0.E0,1.E0));
#93=VECTOR('',#92,8.E-2);
#94=CARTESIAN_POINT('',(1.69E0,-2.5E-1,0.E0));
#95=LINE('',#94,#93);
#96=DIRECTION('',(0.E0,0.E0,1.E0));
#97=VECTOR('',#96,8.E-2);
#98=CARTESIAN_POINT('',(1.5E0,-4.4E-1,0.E0));
#99=LINE('',#98,#97);
#100=DIRECTION('',(0.E0,0.E0,1.E0));
#101=VECTOR('',#100,8.E-2);
#102=CARTESIAN_POINT('',(1.5E0,-5.E-1,0.E0));
#103=LINE('',#102,#101);
#104=DIRECTION('',(0.E0,0.E0,1.E0));
#105=VECTOR('',#104,8.E-2);
#106=CARTESIAN_POINT('',(1.9E-1,-5.E-1,0.E0));
#107=LINE('',#106,#105);
#108=DIRECTION('',(0.E0,0.E0,1.E0));
#109=VECTOR('',#108,8.E-2);
#110=CARTESIAN_POINT('',(0.E0,-3.1E-1,0.E0));
#111=LINE('',#110,#109);
#112=DIRECTION('',(0.E0,0.E0,1.E0));
#113=VECTOR('',#112,8.E-2);
#114=CARTESIAN_POINT('',(0.E0,3.1E-1,0.E0));
#115=LINE('',#114,#113);
#116=DIRECTION('',(0.E0,0.E0,1.E0));
#117=VECTOR('',#116,8.E-2);
#118=CARTESIAN_POINT('',(1.9E-1,5.E-1,0.E0));
#119=LINE('',#118,#117);
#120=DIRECTION('',(0.E0,0.E0,1.E0));
#121=VECTOR('',#120,8.E-2);
#122=CARTESIAN_POINT('',(1.5E0,5.E-1,0.E0));
#123=LINE('',#122,#121);
#124=DIRECTION('',(0.E0,0.E0,1.E0));
#125=VECTOR('',#124,8.E-2);
#126=CARTESIAN_POINT('',(1.5E0,4.4E-1,0.E0));
#127=LINE('',#126,#125);
#128=DIRECTION('',(0.E0,0.E0,1.E0));
#129=VECTOR('',#128,8.E-2);
#130=CARTESIAN_POINT('',(1.69E0,2.5E-1,0.E0));
#131=LINE('',#130,#129);
#132=DIRECTION('',(-1.E0,0.E0,0.E0));
#133=VECTOR('',#132,9.06E0);
#134=CARTESIAN_POINT('',(1.075E1,2.5E-1,8.E-2));
#135=LINE('',#134,#133);
#136=CARTESIAN_POINT('',(1.075E1,0.E0,8.E-2));
#137=DIRECTION('',(0.E0,0.E0,1.E0));
#138=DIRECTION('',(0.E0,-1.E0,0.E0));
#139=AXIS2_PLACEMENT_3D('',#136,#137,#138);
#141=DIRECTION('',(1.E0,0.E0,0.E0));
#142=VECTOR('',#141,9.06E0);
#143=CARTESIAN_POINT('',(1.69E0,-2.5E-1,8.E-2));
#144=LINE('',#143,#142);
#145=CARTESIAN_POINT('',(1.69E0,-4.4E-1,8.E-2));
#146=DIRECTION('',(0.E0,0.E0,-1.E0));
#147=DIRECTION('',(-1.E0,0.E0,0.E0));
#148=AXIS2_PLACEMENT_3D('',#145,#146,#147);
#150=DIRECTION('',(0.E0,1.E0,0.E0));
#151=VECTOR('',#150,6.E-2);
#152=CARTESIAN_POINT('',(1.5E0,-5.E-1,8.E-2));
#153=LINE('',#152,#151);
#154=DIRECTION('',(1.E0,0.E0,0.E0));
#155=VECTOR('',#154,1.31E0);
#156=CARTESIAN_POINT('',(1.9E-1,-5.E-1,8.E-2));
#157=LINE('',#156,#155);
#158=CARTESIAN_POINT('',(1.9E-1,-3.1E-1,8.E-2));
#159=DIRECTION('',(0.E0,0.E0,1.E0));
#160=DIRECTION('',(-1.E0,0.E0,0.E0));
#161=AXIS2_PLACEMENT_3D('',#158,#159,#160);
#163=DIRECTION('',(0.E0,-1.E0,0.E0));
#164=VECTOR('',#163,6.2E-1);
#165=CARTESIAN_POINT('',(0.E0,3.1E-1,8.E-2));
#166=LINE('',#165,#164);
#167=CARTESIAN_POINT('',(1.9E-1,3.1E-1,8.E-2));
#168=DIRECTION('',(0.E0,0.E0,1.E0));
#169=DIRECTION('',(0.E0,1.E0,0.E0));
#170=AXIS2_PLACEMENT_3D('',#167,#168,#169);
#172=DIRECTION('',(-1.E0,0.E0,0.E0));
#173=VECTOR('',#172,1.31E0);
#174=CARTESIAN_POINT('',(1.5E0,5.E-1,8.E-2));
#175=LINE('',#174,#173);
#176=DIRECTION('',(0.E0,1.E0,0.E0));
#177=VECTOR('',#176,6.E-2);
#178=CARTESIAN_POINT('',(1.5E0,4.4E-1,8.E-2));
#179=LINE('',#178,#177);
#180=CARTESIAN_POINT('',(1.69E0,4.4E-1,8.E-2));
#181=DIRECTION('',(0.E0,0.E0,-1.E0));
#182=DIRECTION('',(0.E0,-1.E0,0.E0));
#183=AXIS2_PLACEMENT_3D('',#180,#181,#182);
#185=DIRECTION('',(0.E0,1.E0,0.E0));
#186=VECTOR('',#185,5.E-1);
#187=CARTESIAN_POINT('',(8.1E-1,-2.5E-1,8.E-2));
#188=LINE('',#187,#186);
#189=CARTESIAN_POINT('',(7.5E-1,2.5E-1,8.E-2));
#190=DIRECTION('',(0.E0,0.E0,1.E0));
#191=DIRECTION('',(1.E0,0.E0,0.E0));
#192=AXIS2_PLACEMENT_3D('',#189,#190,#191);
#194=DIRECTION('',(0.E0,-1.E0,0.E0));
#195=VECTOR('',#194,5.E-1);
#196=CARTESIAN_POINT('',(6.9E-1,2.5E-1,8.E-2));
#197=LINE('',#196,#195);
#198=CARTESIAN_POINT('',(7.5E-1,-2.5E-1,8.E-2));
#199=DIRECTION('',(0.E0,0.E0,1.E0));
#200=DIRECTION('',(-1.E0,0.E0,0.E0));
#201=AXIS2_PLACEMENT_3D('',#198,#199,#200);
#203=DIRECTION('',(0.E0,0.E0,-1.E0));
#204=VECTOR('',#203,8.E-2);
#205=CARTESIAN_POINT('',(8.1E-1,-2.5E-1,8.E-2));
#206=LINE('',#205,#204);
#207=DIRECTION('',(0.E0,0.E0,-1.E0));
#208=VECTOR('',#207,8.E-2);
#209=CARTESIAN_POINT('',(8.1E-1,2.5E-1,8.E-2));
#210=LINE('',#209,#208);
#211=DIRECTION('',(0.E0,0.E0,-1.E0));
#212=VECTOR('',#211,8.E-2);
#213=CARTESIAN_POINT('',(6.9E-1,2.5E-1,8.E-2));
#214=LINE('',#213,#212);
#215=DIRECTION('',(0.E0,0.E0,-1.E0));
#216=VECTOR('',#215,8.E-2);
#217=CARTESIAN_POINT('',(6.9E-1,-2.5E-1,8.E-2));
#218=LINE('',#217,#216);
#219=CARTESIAN_POINT('',(1.075E1,2.5E-1,0.E0));
#220=CARTESIAN_POINT('',(1.69E0,2.5E-1,0.E0));
#221=VERTEX_POINT('',#219);
#222=VERTEX_POINT('',#220);
#223=CARTESIAN_POINT('',(1.5E0,4.4E-1,0.E0));
#224=VERTEX_POINT('',#223);
#225=CARTESIAN_POINT('',(1.5E0,5.E-1,0.E0));
#226=VERTEX_POINT('',#225);
#227=CARTESIAN_POINT('',(1.9E-1,5.E-1,0.E0));
#228=VERTEX_POINT('',#227);
#229=CARTESIAN_POINT('',(0.E0,3.1E-1,0.E0));
#230=VERTEX_POINT('',#229);
#231=CARTESIAN_POINT('',(0.E0,-3.1E-1,0.E0));
#232=VERTEX_POINT('',#231);
#233=CARTESIAN_POINT('',(1.9E-1,-5.E-1,0.E0));
#234=VERTEX_POINT('',#233);
#235=CARTESIAN_POINT('',(1.5E0,-5.E-1,0.E0));
#236=VERTEX_POINT('',#235);
#237=CARTESIAN_POINT('',(1.5E0,-4.4E-1,0.E0));
#238=VERTEX_POINT('',#237);
#239=CARTESIAN_POINT('',(1.69E0,-2.5E-1,0.E0));
#240=VERTEX_POINT('',#239);
#241=CARTESIAN_POINT('',(1.075E1,-2.5E-1,0.E0));
#242=VERTEX_POINT('',#241);
#243=CARTESIAN_POINT('',(1.075E1,2.5E-1,8.E-2));
#244=CARTESIAN_POINT('',(1.69E0,2.5E-1,8.E-2));
#245=VERTEX_POINT('',#243);
#246=VERTEX_POINT('',#244);
#247=CARTESIAN_POINT('',(1.5E0,4.4E-1,8.E-2));
#248=VERTEX_POINT('',#247);
#249=CARTESIAN_POINT('',(1.5E0,5.E-1,8.E-2));
#250=VERTEX_POINT('',#249);
#251=CARTESIAN_POINT('',(1.9E-1,5.E-1,8.E-2));
#252=VERTEX_POINT('',#251);
#253=CARTESIAN_POINT('',(0.E0,3.1E-1,8.E-2));
#254=VERTEX_POINT('',#253);
#255=CARTESIAN_POINT('',(0.E0,-3.1E-1,8.E-2));
#256=VERTEX_POINT('',#255);
#257=CARTESIAN_POINT('',(1.9E-1,-5.E-1,8.E-2));
#258=VERTEX_POINT('',#257);
#259=CARTESIAN_POINT('',(1.5E0,-5.E-1,8.E-2));
#260=VERTEX_POINT('',#259);
#261=CARTESIAN_POINT('',(1.5E0,-4.4E-1,8.E-2));
#262=VERTEX_POINT('',#261);
#263=CARTESIAN_POINT('',(1.69E0,-2.5E-1,8.E-2));
#264=VERTEX_POINT('',#263);
#265=CARTESIAN_POINT('',(1.075E1,-2.5E-1,8.E-2));
#266=VERTEX_POINT('',#265);
#267=CARTESIAN_POINT('',(8.1E-1,-2.5E-1,0.E0));
#268=CARTESIAN_POINT('',(8.1E-1,2.5E-1,0.E0));
#269=VERTEX_POINT('',#267);
#270=VERTEX_POINT('',#268);
#271=CARTESIAN_POINT('',(6.9E-1,2.5E-1,0.E0));
#272=VERTEX_POINT('',#271);
#273=CARTESIAN_POINT('',(6.9E-1,-2.5E-1,0.E0));
#274=VERTEX_POINT('',#273);
#275=CARTESIAN_POINT('',(8.1E-1,-2.5E-1,8.E-2));
#276=CARTESIAN_POINT('',(8.1E-1,2.5E-1,8.E-2));
#277=VERTEX_POINT('',#275);
#278=VERTEX_POINT('',#276);
#279=CARTESIAN_POINT('',(6.9E-1,2.5E-1,8.E-2));
#280=VERTEX_POINT('',#279);
#281=CARTESIAN_POINT('',(6.9E-1,-2.5E-1,8.E-2));
#282=VERTEX_POINT('',#281);
#283=CARTESIAN_POINT('',(0.E0,0.E0,0.E0));
#284=DIRECTION('',(0.E0,0.E0,1.E0));
#285=DIRECTION('',(1.E0,0.E0,0.E0));
#286=AXIS2_PLACEMENT_3D('',#283,#284,#285);
#287=PLANE('',#286);
#289=ORIENTED_EDGE('',*,*,#288,.T.);
#291=ORIENTED_EDGE('',*,*,#290,.T.);
#293=ORIENTED_EDGE('',*,*,#292,.T.);
#295=ORIENTED_EDGE('',*,*,#294,.T.);
#297=ORIENTED_EDGE('',*,*,#296,.T.);
#299=ORIENTED_EDGE('',*,*,#298,.T.);
#301=ORIENTED_EDGE('',*,*,#300,.T.);
#303=ORIENTED_EDGE('',*,*,#302,.T.);
#305=ORIENTED_EDGE('',*,*,#304,.T.);
#307=ORIENTED_EDGE('',*,*,#306,.T.);
#309=ORIENTED_EDGE('',*,*,#308,.T.);
#311=ORIENTED_EDGE('',*,*,#310,.T.);
#312=EDGE_LOOP('',(#289,#291,#293,#295,#297,#299,#301,#303,#305,#307,#309,
#311));
#313=FACE_OUTER_BOUND('',#312,.F.);
#315=ORIENTED_EDGE('',*,*,#314,.F.);
#317=ORIENTED_EDGE('',*,*,#316,.F.);
#319=ORIENTED_EDGE('',*,*,#318,.F.);
#321=ORIENTED_EDGE('',*,*,#320,.F.);
#322=EDGE_LOOP('',(#315,#317,#319,#321));
#323=FACE_BOUND('',#322,.F.);
#325=CARTESIAN_POINT('',(1.075E1,2.5E-1,0.E0));
#326=DIRECTION('',(0.E0,1.E0,0.E0));
#327=DIRECTION('',(-1.E0,0.E0,0.E0));
#328=AXIS2_PLACEMENT_3D('',#325,#326,#327);
#329=PLANE('',#328);
#330=ORIENTED_EDGE('',*,*,#288,.F.);
#332=ORIENTED_EDGE('',*,*,#331,.T.);
#334=ORIENTED_EDGE('',*,*,#333,.T.);
#336=ORIENTED_EDGE('',*,*,#335,.F.);
#337=EDGE_LOOP('',(#330,#332,#334,#336));
#338=FACE_OUTER_BOUND('',#337,.F.);
#340=CARTESIAN_POINT('',(1.075E1,0.E0,0.E0));
#341=DIRECTION('',(0.E0,0.E0,1.E0));
#342=DIRECTION('',(1.E0,0.E0,0.E0));
#343=AXIS2_PLACEMENT_3D('',#340,#341,#342);
#344=CYLINDRICAL_SURFACE('',#343,2.5E-1);
#345=ORIENTED_EDGE('',*,*,#310,.F.);
#347=ORIENTED_EDGE('',*,*,#346,.T.);
#349=ORIENTED_EDGE('',*,*,#348,.T.);
#350=ORIENTED_EDGE('',*,*,#331,.F.);
#351=EDGE_LOOP('',(#345,#347,#349,#350));
#352=FACE_OUTER_BOUND('',#351,.F.);
#354=CARTESIAN_POINT('',(1.69E0,-2.5E-1,0.E0));
#355=DIRECTION('',(0.E0,-1.E0,0.E0));
#356=DIRECTION('',(1.E0,0.E0,0.E0));
#357=AXIS2_PLACEMENT_3D('',#354,#355,#356);
#358=PLANE('',#357);
#359=ORIENTED_EDGE('',*,*,#308,.F.);
#361=ORIENTED_EDGE('',*,*,#360,.T.);
#363=ORIENTED_EDGE('',*,*,#362,.T.);
#364=ORIENTED_EDGE('',*,*,#346,.F.);
#365=EDGE_LOOP('',(#359,#361,#363,#364));
#366=FACE_OUTER_BOUND('',#365,.F.);
#368=CARTESIAN_POINT('',(1.69E0,-4.4E-1,0.E0));
#369=DIRECTION('',(0.E0,0.E0,1.E0));
#370=DIRECTION('',(1.E0,0.E0,0.E0));
#371=AXIS2_PLACEMENT_3D('',#368,#369,#370);
#372=CYLINDRICAL_SURFACE('',#371,1.9E-1);
#373=ORIENTED_EDGE('',*,*,#306,.F.);
#375=ORIENTED_EDGE('',*,*,#374,.T.);
#377=ORIENTED_EDGE('',*,*,#376,.T.);
#378=ORIENTED_EDGE('',*,*,#360,.F.);
#379=EDGE_LOOP('',(#373,#375,#377,#378));
#380=FACE_OUTER_BOUND('',#379,.F.);
#382=CARTESIAN_POINT('',(1.5E0,-5.E-1,0.E0));
#383=DIRECTION('',(1.E0,0.E0,0.E0));
#384=DIRECTION('',(0.E0,1.E0,0.E0));
#385=AXIS2_PLACEMENT_3D('',#382,#383,#384);
#386=PLANE('',#385);
#387=ORIENTED_EDGE('',*,*,#304,.F.);
#389=ORIENTED_EDGE('',*,*,#388,.T.);
#391=ORIENTED_EDGE('',*,*,#390,.T.);
#392=ORIENTED_EDGE('',*,*,#374,.F.);
#393=EDGE_LOOP('',(#387,#389,#391,#392));
#394=FACE_OUTER_BOUND('',#393,.F.);
#396=CARTESIAN_POINT('',(1.9E-1,-5.E-1,0.E0));
#397=DIRECTION('',(0.E0,-1.E0,0.E0));
#398=DIRECTION('',(1.E0,0.E0,0.E0));
#399=AXIS2_PLACEMENT_3D('',#396,#397,#398);
#400=PLANE('',#399);
#401=ORIENTED_EDGE('',*,*,#302,.F.);
#403=ORIENTED_EDGE('',*,*,#402,.T.);
#405=ORIENTED_EDGE('',*,*,#404,.T.);
#406=ORIENTED_EDGE('',*,*,#388,.F.);
#407=EDGE_LOOP('',(#401,#403,#405,#406));
#408=FACE_OUTER_BOUND('',#407,.F.);
#410=CARTESIAN_POINT('',(1.9E-1,-3.1E-1,0.E0));
#411=DIRECTION('',(0.E0,0.E0,1.E0));
#412=DIRECTION('',(1.E0,0.E0,0.E0));
#413=AXIS2_PLACEMENT_3D('',#410,#411,#412);
#414=CYLINDRICAL_SURFACE('',#413,1.9E-1);
#415=ORIENTED_EDGE('',*,*,#300,.F.);
#417=ORIENTED_EDGE('',*,*,#416,.T.);
#419=ORIENTED_EDGE('',*,*,#418,.T.);
#420=ORIENTED_EDGE('',*,*,#402,.F.);
#421=EDGE_LOOP('',(#415,#417,#419,#420));
#422=FACE_OUTER_BOUND('',#421,.F.);
#424=CARTESIAN_POINT('',(0.E0,3.1E-1,0.E0));
#425=DIRECTION('',(-1.E0,0.E0,0.E0));
#426=DIRECTION('',(0.E0,-1.E0,0.E0));
#427=AXIS2_PLACEMENT_3D('',#424,#425,#426);
#428=PLANE('',#427);
#429=ORIENTED_EDGE('',*,*,#298,.F.);
#431=ORIENTED_EDGE('',*,*,#430,.T.);
#433=ORIENTED_EDGE('',*,*,#432,.T.);
#434=ORIENTED_EDGE('',*,*,#416,.F.);
#435=EDGE_LOOP('',(#429,#431,#433,#434));
#436=FACE_OUTER_BOUND('',#435,.F.);
#438=CARTESIAN_POINT('',(1.9E-1,3.1E-1,0.E0));
#439=DIRECTION('',(0.E0,0.E0,1.E0));
#440=DIRECTION('',(1.E0,0.E0,0.E0));
#441=AXIS2_PLACEMENT_3D('',#438,#439,#440);
#442=CYLINDRICAL_SURFACE('',#441,1.9E-1);
#443=ORIENTED_EDGE('',*,*,#296,.F.);
#445=ORIENTED_EDGE('',*,*,#444,.T.);
#447=ORIENTED_EDGE('',*,*,#446,.T.);
#448=ORIENTED_EDGE('',*,*,#430,.F.);
#449=EDGE_LOOP('',(#443,#445,#447,#448));
#450=FACE_OUTER_BOUND('',#449,.F.);
#452=CARTESIAN_POINT('',(1.5E0,5.E-1,0.E0));
#453=DIRECTION('',(0.E0,1.E0,0.E0));
#454=DIRECTION('',(-1.E0,0.E0,0.E0));
#455=AXIS2_PLACEMENT_3D('',#452,#453,#454);
#456=PLANE('',#455);
#457=ORIENTED_EDGE('',*,*,#294,.F.);
#459=ORIENTED_EDGE('',*,*,#458,.T.);
#461=ORIENTED_EDGE('',*,*,#460,.T.);
#462=ORIENTED_EDGE('',*,*,#444,.F.);
#463=EDGE_LOOP('',(#457,#459,#461,#462));
#464=FACE_OUTER_BOUND('',#463,.F.);
#466=CARTESIAN_POINT('',(1.5E0,4.4E-1,0.E0));
#467=DIRECTION('',(1.E0,0.E0,0.E0));
#468=DIRECTION('',(0.E0,1.E0,0.E0));
#469=AXIS2_PLACEMENT_3D('',#466,#467,#468);
#470=PLANE('',#469);
#471=ORIENTED_EDGE('',*,*,#292,.F.);
#473=ORIENTED_EDGE('',*,*,#472,.T.);
#475=ORIENTED_EDGE('',*,*,#474,.T.);
#476=ORIENTED_EDGE('',*,*,#458,.F.);
#477=EDGE_LOOP('',(#471,#473,#475,#476));
#478=FACE_OUTER_BOUND('',#477,.F.);
#480=CARTESIAN_POINT('',(1.69E0,4.4E-1,0.E0));
#481=DIRECTION('',(0.E0,0.E0,1.E0));
#482=DIRECTION('',(1.E0,0.E0,0.E0));
#483=AXIS2_PLACEMENT_3D('',#480,#481,#482);
#484=CYLINDRICAL_SURFACE('',#483,1.9E-1);
#485=ORIENTED_EDGE('',*,*,#290,.F.);
#486=ORIENTED_EDGE('',*,*,#335,.T.);
#488=ORIENTED_EDGE('',*,*,#487,.T.);
#489=ORIENTED_EDGE('',*,*,#472,.F.);
#490=EDGE_LOOP('',(#485,#486,#488,#489));
#491=FACE_OUTER_BOUND('',#490,.F.);
#493=CARTESIAN_POINT('',(0.E0,0.E0,8.E-2));
#494=DIRECTION('',(0.E0,0.E0,1.E0));
#495=DIRECTION('',(1.E0,0.E0,0.E0));
#496=AXIS2_PLACEMENT_3D('',#493,#494,#495);
#497=PLANE('',#496);
#498=ORIENTED_EDGE('',*,*,#333,.F.);
#499=ORIENTED_EDGE('',*,*,#348,.F.);
#500=ORIENTED_EDGE('',*,*,#362,.F.);
#501=ORIENTED_EDGE('',*,*,#376,.F.);
#502=ORIENTED_EDGE('',*,*,#390,.F.);
#503=ORIENTED_EDGE('',*,*,#404,.F.);
#504=ORIENTED_EDGE('',*,*,#418,.F.);
#505=ORIENTED_EDGE('',*,*,#432,.F.);
#506=ORIENTED_EDGE('',*,*,#446,.F.);
#507=ORIENTED_EDGE('',*,*,#460,.F.);
#508=ORIENTED_EDGE('',*,*,#474,.F.);
#509=ORIENTED_EDGE('',*,*,#487,.F.);
#510=EDGE_LOOP('',(#498,#499,#500,#501,#502,#503,#504,#505,#506,#507,#508,
#509));
#511=FACE_OUTER_BOUND('',#510,.F.);
#513=ORIENTED_EDGE('',*,*,#512,.T.);
#515=ORIENTED_EDGE('',*,*,#514,.T.);
#517=ORIENTED_EDGE('',*,*,#516,.T.);
#519=ORIENTED_EDGE('',*,*,#518,.T.);
#520=EDGE_LOOP('',(#513,#515,#517,#519));
#521=FACE_BOUND('',#520,.F.);
#523=CARTESIAN_POINT('',(8.1E-1,-2.5E-1,8.E-2));
#524=DIRECTION('',(1.E0,0.E0,0.E0));
#525=DIRECTION('',(0.E0,1.E0,0.E0));
#526=AXIS2_PLACEMENT_3D('',#523,#524,#525);
#527=PLANE('',#526);
#528=ORIENTED_EDGE('',*,*,#314,.T.);
#530=ORIENTED_EDGE('',*,*,#529,.F.);
#531=ORIENTED_EDGE('',*,*,#512,.F.);
#533=ORIENTED_EDGE('',*,*,#532,.T.);
#534=EDGE_LOOP('',(#528,#530,#531,#533));
#535=FACE_OUTER_BOUND('',#534,.F.);
#537=CARTESIAN_POINT('',(7.5E-1,2.5E-1,8.E-2));
#538=DIRECTION('',(0.E0,0.E0,1.E0));
#539=DIRECTION('',(1.E0,0.E0,0.E0));
#540=AXIS2_PLACEMENT_3D('',#537,#538,#539);
#541=CYLINDRICAL_SURFACE('',#540,6.E-2);
#542=ORIENTED_EDGE('',*,*,#320,.T.);
#544=ORIENTED_EDGE('',*,*,#543,.F.);
#545=ORIENTED_EDGE('',*,*,#514,.F.);
#546=ORIENTED_EDGE('',*,*,#529,.T.);
#547=EDGE_LOOP('',(#542,#544,#545,#546));
#548=FACE_OUTER_BOUND('',#547,.F.);
#550=CARTESIAN_POINT('',(6.9E-1,2.5E-1,8.E-2));
#551=DIRECTION('',(-1.E0,0.E0,0.E0));
#552=DIRECTION('',(0.E0,-1.E0,0.E0));
#553=AXIS2_PLACEMENT_3D('',#550,#551,#552);
#554=PLANE('',#553);
#555=ORIENTED_EDGE('',*,*,#318,.T.);
#557=ORIENTED_EDGE('',*,*,#556,.F.);
#558=ORIENTED_EDGE('',*,*,#516,.F.);
#559=ORIENTED_EDGE('',*,*,#543,.T.);
#560=EDGE_LOOP('',(#555,#557,#558,#559));
#561=FACE_OUTER_BOUND('',#560,.F.);
#563=CARTESIAN_POINT('',(7.5E-1,-2.5E-1,8.E-2));
#564=DIRECTION('',(0.E0,0.E0,1.E0));
#565=DIRECTION('',(1.E0,0.E0,0.E0));
#566=AXIS2_PLACEMENT_3D('',#563,#564,#565);
#567=CYLINDRICAL_SURFACE('',#566,6.E-2);
#568=ORIENTED_EDGE('',*,*,#316,.T.);
#569=ORIENTED_EDGE('',*,*,#532,.F.);
#570=ORIENTED_EDGE('',*,*,#518,.F.);
#571=ORIENTED_EDGE('',*,*,#556,.T.);
#572=EDGE_LOOP('',(#568,#569,#570,#571));
#573=FACE_OUTER_BOUND('',#572,.F.);
#575=CLOSED_SHELL('',(#324,#339,#353,#367,#381,#395,#409,#423,#437,#451,#465,
#479,#492,#522,#536,#549,#562,#574));
#576=MANIFOLD_SOLID_BREP('',#575);
#577=DIMENSIONAL_EXPONENTS(1.E0,0.E0,0.E0,0.E0,0.E0,0.E0,0.E0);
#579=LENGTH_MEASURE_WITH_UNIT(LENGTH_MEASURE(2.54E1),#578);
#580=(CONVERSION_BASED_UNIT('INCH',#579)LENGTH_UNIT()NAMED_UNIT(#577));
#581=DIMENSIONAL_EXPONENTS(0.E0,0.E0,0.E0,0.E0,0.E0,0.E0,0.E0);
#583=PLANE_ANGLE_MEASURE_WITH_UNIT(PLANE_ANGLE_MEASURE(1.745329251994E-2),#582);
#584=(CONVERSION_BASED_UNIT('DEGREE',#583)NAMED_UNIT(*)PLANE_ANGLE_UNIT());
#586=UNCERTAINTY_MEASURE_WITH_UNIT(LENGTH_MEASURE(1.214076634467E-3),#580,
'distance_accuracy_value',
'Maximum model space distance between geometric entities at asserted connectivities');
#588=CARTESIAN_POINT('',(0.E0,0.E0,0.E0));
#589=DIRECTION('',(0.E0,0.E0,1.E0));
#590=DIRECTION('',(1.E0,0.E0,0.E0));
#593=APPLICATION_CONTEXT('automotive_design');
#594=APPLICATION_PROTOCOL_DEFINITION('draft international standard',
'automotive_design',1998,#593);
#595=PRODUCT_DEFINITION_CONTEXT('part definition',#593,'design');
#596=PRODUCT_CONTEXT('',#593,'mechanical');
#597=PRODUCT('443302','443302','NOT SPECIFIED',(#596));
#598=PRODUCT_DEFINITION_FORMATION_WITH_SPECIFIED_SOURCE('21','LAST_VERSION',
#597,.MADE.);
#607=CARTESIAN_POINT('',(0.E0,0.E0,0.E0));
#608=DIRECTION('',(0.E0,0.E0,1.E0));
#609=DIRECTION('',(1.E0,0.E0,0.E0));
#610=AXIS2_PLACEMENT_3D('',#607,#608,#609);
#611=ITEM_DEFINED_TRANSFORMATION('','',#591,#610);
#612=(REPRESENTATION_RELATIONSHIP('','',#592,#604)REPRESENTATION_RELATIONSHIP_WITH_TRANSFORMATION(#611)SHAPE_REPRESENTATION_RELATIONSHIP());
#613=CONTEXT_DEPENDENT_SHAPE_REPRESENTATION(#612,#606);
#614=DIMENSIONAL_EXPONENTS(1.E0,0.E0,0.E0,0.E0,0.E0,0.E0,0.E0);
#616=LENGTH_MEASURE_WITH_UNIT(LENGTH_MEASURE(2.54E1),#615);
#617=(CONVERSION_BASED_UNIT('INCH',#616)LENGTH_UNIT()NAMED_UNIT(#614));
#618=DIMENSIONAL_EXPONENTS(0.E0,0.E0,0.E0,0.E0,0.E0,0.E0,0.E0);
#620=PLANE_ANGLE_MEASURE_WITH_UNIT(PLANE_ANGLE_MEASURE(1.745329251994E-2),#619);
#621=(CONVERSION_BASED_UNIT('DEGREE',#620)NAMED_UNIT(*)PLANE_ANGLE_UNIT());
#623=UNCERTAINTY_MEASURE_WITH_UNIT(LENGTH_MEASURE(4.783023223826E-4),#617,
'distance_accuracy_value',
'Maximum model space distance between geometric entities at asserted connectivities');
#625=CARTESIAN_POINT('',(0.E0,0.E0,0.E0));
#626=DIRECTION('',(0.E0,0.E0,1.E0));
#627=DIRECTION('',(1.E0,0.E0,0.E0));
#630=PRODUCT_CONTEXT('',#593,'mechanical');
#631=PRODUCT('009895','009895','NOT SPECIFIED',(#630));
#632=PRODUCT_DEFINITION_FORMATION_WITH_SPECIFIED_SOURCE('1','LAST_VERSION',#631,
.MADE.);
#638=CARTESIAN_POINT('',(0.E0,0.E0,0.E0));
#639=DIRECTION('',(0.E0,0.E0,1.E0));
#640=DIRECTION('',(1.E0,0.E0,0.E0));
#641=AXIS2_PLACEMENT_3D('',#638,#639,#640);
#642=ITEM_DEFINED_TRANSFORMATION('','',#628,#641);
#643=(REPRESENTATION_RELATIONSHIP('','',#629,#604)REPRESENTATION_RELATIONSHIP_WITH_TRANSFORMATION(#642)SHAPE_REPRESENTATION_RELATIONSHIP());
#644=CONTEXT_DEPENDENT_SHAPE_REPRESENTATION(#643,#637);
#647=CARTESIAN_POINT('',(0.E0,0.E0,0.E0));
#648=DIRECTION('',(0.E0,0.E0,1.E0));
#649=DIRECTION('',(1.E0,0.E0,0.E0));
#650=AXIS2_PLACEMENT_3D('',#647,#648,#649);
#651=ITEM_DEFINED_TRANSFORMATION('','',#628,#650);
#652=(REPRESENTATION_RELATIONSHIP('','',#629,#604)REPRESENTATION_RELATIONSHIP_WITH_TRANSFORMATION(#651)SHAPE_REPRESENTATION_RELATIONSHIP());
#653=CONTEXT_DEPENDENT_SHAPE_REPRESENTATION(#652,#646);
#654=DIMENSIONAL_EXPONENTS(1.E0,0.E0,0.E0,0.E0,0.E0,0.E0,0.E0);
#656=LENGTH_MEASURE_WITH_UNIT(LENGTH_MEASURE(2.54E1),#655);
#657=(CONVERSION_BASED_UNIT('INCH',#656)LENGTH_UNIT()NAMED_UNIT(#654));
#658=DIMENSIONAL_EXPONENTS(0.E0,0.E0,0.E0,0.E0,0.E0,0.E0,0.E0);
#660=PLANE_ANGLE_MEASURE_WITH_UNIT(PLANE_ANGLE_MEASURE(1.745329251994E-2),#659);
#661=(CONVERSION_BASED_UNIT('DEGREE',#660)NAMED_UNIT(*)PLANE_ANGLE_UNIT());
#663=UNCERTAINTY_MEASURE_WITH_UNIT(LENGTH_MEASURE(1.104591898326E-3),#657,
'distance_accuracy_value',
'Maximum model space distance between geometric entities at asserted connectivities');
#665=CARTESIAN_POINT('',(0.E0,0.E0,0.E0));
#666=DIRECTION('',(0.E0,0.E0,1.E0));
#667=DIRECTION('',(1.E0,0.E0,0.E0));
#669=PRODUCT_DEFINITION_CONTEXT('part definition',#593,'design');
#670=PRODUCT_CONTEXT('',#593,'mechanical');
#671=PRODUCT('459281_ASM','459281_ASM','NOT SPECIFIED',(#670));
#672=PRODUCT_DEFINITION_FORMATION_WITH_SPECIFIED_SOURCE('3','LAST_VERSION',#671,
.MADE.);
#674=PRODUCT_TYPE('part','',(#671,#597,#631));
#1=DRAUGHTING_PRE_DEFINED_COLOUR('green');
#2=COLOUR_RGB('',1.1E-2,1.2E-2,1.E0);
#3=COLOUR_RGB('',1.1E-1,1.1E-1,1.1E-1);
#4=COLOUR_RGB('',3.92E-1,1.2E-2,1.2E-2);
#5=COLOUR_RGB('',4.1E-1,0.E0,2.2E-1);
#6=COLOUR_RGB('',8.784E-1,9.49E-1,1.E0);
#7=COLOUR_RGB('',9.6E-1,9.6E-1,9.6E-1);
#8=COLOUR_RGB('',9.8E-1,6.27E-1,0.E0);
#9=DRAUGHTING_PRE_DEFINED_COLOUR('red');
#10=DRAUGHTING_PRE_DEFINED_COLOUR('yellow');
#11=COLOUR_RGB('',1.E0,1.E0,9.49E-1);
#12=DRAUGHTING_PRE_DEFINED_COLOUR('white');
#21=CIRCLE('',#20,1.9E-1);
#34=CIRCLE('',#33,1.9E-1);
#43=CIRCLE('',#42,1.9E-1);
#56=CIRCLE('',#55,1.9E-1);
#65=CIRCLE('',#64,2.5E-1);
#74=CIRCLE('',#73,6.E-2);
#83=CIRCLE('',#82,6.E-2);
#140=CIRCLE('',#139,2.5E-1);
#149=CIRCLE('',#148,1.9E-1);
#162=CIRCLE('',#161,1.9E-1);
#171=CIRCLE('',#170,1.9E-1);
#184=CIRCLE('',#183,1.9E-1);
#193=CIRCLE('',#192,6.E-2);
#202=CIRCLE('',#201,6.E-2);
#288=EDGE_CURVE('',#221,#222,#16,.T.);
#290=EDGE_CURVE('',#222,#224,#21,.T.);
#292=EDGE_CURVE('',#224,#226,#25,.T.);
#294=EDGE_CURVE('',#226,#228,#29,.T.);
#296=EDGE_CURVE('',#228,#230,#34,.T.);
#298=EDGE_CURVE('',#230,#232,#38,.T.);
#300=EDGE_CURVE('',#232,#234,#43,.T.);
#302=EDGE_CURVE('',#234,#236,#47,.T.);
#304=EDGE_CURVE('',#236,#238,#51,.T.);
#306=EDGE_CURVE('',#238,#240,#56,.T.);
#308=EDGE_CURVE('',#240,#242,#60,.T.);
#310=EDGE_CURVE('',#242,#221,#65,.T.);
#314=EDGE_CURVE('',#269,#270,#69,.T.);
#316=EDGE_CURVE('',#274,#269,#74,.T.);
#318=EDGE_CURVE('',#272,#274,#78,.T.);
#320=EDGE_CURVE('',#270,#272,#83,.T.);
#324=ADVANCED_FACE('',(#313,#323),#287,.F.);
#331=EDGE_CURVE('',#221,#245,#87,.T.);
#333=EDGE_CURVE('',#245,#246,#135,.T.);
#335=EDGE_CURVE('',#222,#246,#131,.T.);
#339=ADVANCED_FACE('',(#338),#329,.T.);
#346=EDGE_CURVE('',#242,#266,#91,.T.);
#348=EDGE_CURVE('',#266,#245,#140,.T.);
#353=ADVANCED_FACE('',(#352),#344,.T.);
#360=EDGE_CURVE('',#240,#264,#95,.T.);
#362=EDGE_CURVE('',#264,#266,#144,.T.);
#367=ADVANCED_FACE('',(#366),#358,.T.);
#374=EDGE_CURVE('',#238,#262,#99,.T.);
#376=EDGE_CURVE('',#262,#264,#149,.T.);
#381=ADVANCED_FACE('',(#380),#372,.F.);
#388=EDGE_CURVE('',#236,#260,#103,.T.);
#390=EDGE_CURVE('',#260,#262,#153,.T.);
#395=ADVANCED_FACE('',(#394),#386,.T.);
#402=EDGE_CURVE('',#234,#258,#107,.T.);
#404=EDGE_CURVE('',#258,#260,#157,.T.);
#409=ADVANCED_FACE('',(#408),#400,.T.);
#416=EDGE_CURVE('',#232,#256,#111,.T.);
#418=EDGE_CURVE('',#256,#258,#162,.T.);
#423=ADVANCED_FACE('',(#422),#414,.T.);
#430=EDGE_CURVE('',#230,#254,#115,.T.);
#432=EDGE_CURVE('',#254,#256,#166,.T.);
#437=ADVANCED_FACE('',(#436),#428,.T.);
#444=EDGE_CURVE('',#228,#252,#119,.T.);
#446=EDGE_CURVE('',#252,#254,#171,.T.);
#451=ADVANCED_FACE('',(#450),#442,.T.);
#458=EDGE_CURVE('',#226,#250,#123,.T.);
#460=EDGE_CURVE('',#250,#252,#175,.T.);
#465=ADVANCED_FACE('',(#464),#456,.T.);
#472=EDGE_CURVE('',#224,#248,#127,.T.);
#474=EDGE_CURVE('',#248,#250,#179,.T.);
#479=ADVANCED_FACE('',(#478),#470,.T.);
#487=EDGE_CURVE('',#246,#248,#184,.T.);
#492=ADVANCED_FACE('',(#491),#484,.F.);
#512=EDGE_CURVE('',#277,#278,#188,.T.);
#514=EDGE_CURVE('',#278,#280,#193,.T.);
#516=EDGE_CURVE('',#280,#282,#197,.T.);
#518=EDGE_CURVE('',#282,#277,#202,.T.);
#522=ADVANCED_FACE('',(#511,#521),#497,.T.);
#529=EDGE_CURVE('',#278,#270,#210,.T.);
#532=EDGE_CURVE('',#277,#269,#206,.T.);
#536=ADVANCED_FACE('',(#535),#527,.F.);
#543=EDGE_CURVE('',#280,#272,#214,.T.);
#549=ADVANCED_FACE('',(#548),#541,.F.);
#556=EDGE_CURVE('',#282,#274,#218,.T.);
#562=ADVANCED_FACE('',(#561),#554,.F.);
#574=ADVANCED_FACE('',(#573),#567,.F.);
#578=(LENGTH_UNIT()NAMED_UNIT(*)SI_UNIT(.MILLI.,.METRE.));
#582=(NAMED_UNIT(*)PLANE_ANGLE_UNIT()SI_UNIT($,.RADIAN.));
#585=(NAMED_UNIT(*)SI_UNIT($,.STERADIAN.)SOLID_ANGLE_UNIT());
#587=(GEOMETRIC_REPRESENTATION_CONTEXT(3)GLOBAL_UNCERTAINTY_ASSIGNED_CONTEXT((
#586))GLOBAL_UNIT_ASSIGNED_CONTEXT((#580,#584,#585))REPRESENTATION_CONTEXT
('ID1','3'));
#591=AXIS2_PLACEMENT_3D('',#588,#589,#590);
#592=ADVANCED_BREP_SHAPE_REPRESENTATION('',(#591,#576),#587);
#599=PRODUCT_DEFINITION('part definition','',#598,#595);
#600=PRODUCT_DEFINITION_SHAPE('','SHAPE FOR 443302.',#599);
#601=SHAPE_DEFINITION_REPRESENTATION(#600,#592);
#602=SHAPE_DEFINITION_REPRESENTATION(#603,#604);
#603=PRODUCT_DEFINITION_SHAPE('','SHAPE FOR 459281_ASM.',#673);
#604=SHAPE_REPRESENTATION('',(#610,#641,#650,#668),#664);
#605=NEXT_ASSEMBLY_USAGE_OCCURRENCE('5','Next assembly relationship','443302',
#673,#599,$);
#606=PRODUCT_DEFINITION_SHAPE('Placement #5',
'Placement of 443302 with respect to 459281_ASM',#605);
#615=(LENGTH_UNIT()NAMED_UNIT(*)SI_UNIT(.MILLI.,.METRE.));
#619=(NAMED_UNIT(*)PLANE_ANGLE_UNIT()SI_UNIT($,.RADIAN.));
#622=(NAMED_UNIT(*)SI_UNIT($,.STERADIAN.)SOLID_ANGLE_UNIT());
#624=(GEOMETRIC_REPRESENTATION_CONTEXT(3)GLOBAL_UNCERTAINTY_ASSIGNED_CONTEXT((
#623))GLOBAL_UNIT_ASSIGNED_CONTEXT((#617,#621,#622))REPRESENTATION_CONTEXT
('ID2','3'));
#628=AXIS2_PLACEMENT_3D('',#625,#626,#627);
#629=SHAPE_REPRESENTATION('',(#628),#624);
#633=PRODUCT_DEFINITION('part definition','',#632,#595);
#634=PRODUCT_DEFINITION_SHAPE('','SHAPE FOR 009895.',#633);
#635=SHAPE_DEFINITION_REPRESENTATION(#634,#629);
#636=NEXT_ASSEMBLY_USAGE_OCCURRENCE('6','Next assembly relationship','009895',
#673,#633,$);
#637=PRODUCT_DEFINITION_SHAPE('Placement #6',
'Placement of 009895 with respect to 459281_ASM',#636);
#645=NEXT_ASSEMBLY_USAGE_OCCURRENCE('7','Next assembly relationship','009895',
#673,#633,$);
#646=PRODUCT_DEFINITION_SHAPE('Placement #7',
'Placement of 009895 with respect to 459281_ASM',#645);
#655=(LENGTH_UNIT()NAMED_UNIT(*)SI_UNIT(.MILLI.,.METRE.));
#659=(NAMED_UNIT(*)PLANE_ANGLE_UNIT()SI_UNIT($,.RADIAN.));
#662=(NAMED_UNIT(*)SI_UNIT($,.STERADIAN.)SOLID_ANGLE_UNIT());
#664=(GEOMETRIC_REPRESENTATION_CONTEXT(3)GLOBAL_UNCERTAINTY_ASSIGNED_CONTEXT((
#663))GLOBAL_UNIT_ASSIGNED_CONTEXT((#657,#661,#662))REPRESENTATION_CONTEXT
('ID3','3'));
#668=AXIS2_PLACEMENT_3D('',#665,#666,#667);
#673=PRODUCT_DEFINITION('part definition','',#672,#669);
ENDSEC;
END-ISO-10303-21;
